  0
SECTION
  2
HEADER
  9
$ACADVER
  1
AC1009
  9
$FILLMODE
 70
0
  9
$EXTMIN
 10
-21.7088
 20
-15.7184
 30
0.0000
  9
$EXTMAX
 10
115.9424
 20
95.8976
 30
0.0000
  0
ENDSEC
  0
SECTION
  2
TABLES
  0
TABLE
  2
LTYPE
 70
1
  0
LTYPE
  2
CONTINUOUS
 70
64
  3
Solid line
 72
65
 73
0
 40
0
  0
ENDTAB
  0
TABLE
  2
LAYER
 70
255
  0
LAYER
  2
20
 70
64
 62
7
  6
CONTINUOUS
  0
ENDTAB
  0
ENDSEC
  0
SECTION
  2
BLOCKS
  0
BLOCK
  8
0
  2
RECT
 70
64
 10
0.0000
 20
0.0000
 30
0.0000
  3
RECT
  0
SOLID
  8
0
 10
-0.5000
 20
-0.5000
 30
0.0000
 11
0.5000
 21
-0.5000
 31
0.0000
 12
-0.5000
 22
0.5000
 32
0.0000
 13
0.5000
 23
0.5000
 33
0.0000
  0
ENDBLK
  8
0
  0
BLOCK
  8
0
  2
PIE
 70
64
 10
0.0000
 20
0.0000
 30
0.0000
  3
PIE
  0
CIRCLE
  8
0
 10
0.0000
 20
0.0000
 30
0.0000
 40
0.5000
  0
ENDBLK
  8
0
  0
BLOCK
  8
0
  2
OCTAGONP
 70
64
 10
0.0000
 20
0.0000
 30
0.0000
  3
OCTAGONP
  0
POLYLINE
  8
0
 66
1
 10
0.0000
 20
0.0000
 30
0.0000
 40
0.0000
 41
0.0000
 70
1
  0
VERTEX
  8
0
 10
-0.5000
 20
-0.2071
 30
0.0000
  0
VERTEX
  8
0
 10
-0.5000
 20
0.2071
 30
0.0000
  0
VERTEX
  8
0
 10
-0.2071
 20
0.5000
 30
0.0000
  0
VERTEX
  8
0
 10
0.2071
 20
0.5000
 30
0.0000
  0
VERTEX
  8
0
 10
0.5000
 20
0.2071
 30
0.0000
  0
VERTEX
  8
0
 10
0.5000
 20
-0.2071
 30
0.0000
  0
VERTEX
  8
0
 10
0.2071
 20
-0.5000
 30
0.0000
  0
VERTEX
  8
0
 10
-0.2071
 20
-0.5000
 30
0.0000
  0
SEQEND
  8
0
  0
ENDBLK
  8
0
  0
BLOCK
  8
0
  2
SQUAREP
 70
64
 10
0.0000
 20
0.0000
 30
0.0000
  3
SQUAREP
  0
SOLID
  8
0
 10
-0.5000
 20
-0.5000
 30
0.0000
 11
0.5000
 21
-0.5000
 31
0.0000
 12
-0.5000
 22
0.5000
 32
0.0000
 13
0.5000
 23
0.5000
 33
0.0000
  0
ENDBLK
  8
0
  0
BLOCK
  8
0
  2
ROUNDP
 70
64
 10
0.0000
 20
0.0000
 30
0.0000
  3
ROUNDP
  0
CIRCLE
  8
0
 10
0.0000
 20
0.0000
 30
0.0000
 40
0.5000
  0
ENDBLK
  8
0
  0
BLOCK
  8
0
  2
ANNULUSP
 70
64
 10
0.0000
 20
0.0000
 30
0.0000
  3
ANNULUSP
  0
CIRCLE
  8
0
 10
0.0000
 20
0.0000
 30
0.0000
 40
0.5000
  0
ENDBLK
  8
0
  0
BLOCK
  8
0
  2
THERMALP
 70
64
 10
0.0000
 20
0.0000
 30
0.0000
  3
THERMALP
  0
LINE
  8
0
 10
-0.2379
 20
0.4500
 30
0.0000
 11
0.2379
 21
0.4500
 31
0.0000
  0
LINE
  8
0
 10
0.4500
 20
0.2379
 30
0.0000
 11
0.4500
 21
-0.2379
 31
0.0000
  0
LINE
  8
0
 10
0.2379
 20
-0.4500
 30
0.0000
 11
-0.2379
 21
-0.4500
 31
0.0000
  0
LINE
  8
0
 10
-0.4500
 20
-0.2379
 30
0.0000
 11
-0.4500
 21
0.2379
 31
0.0000
  0
ENDBLK
  8
0
  0
BLOCK
  8
0
  2
OCTAGONV
 70
64
 10
0.0000
 20
0.0000
 30
0.0000
  3
OCTAGONV
  0
POLYLINE
  8
0
 66
1
 10
0.0000
 20
0.0000
 30
0.0000
 40
0.0000
 41
0.0000
 70
1
  0
VERTEX
  8
0
 10
-0.5000
 20
-0.2071
 30
0.0000
  0
VERTEX
  8
0
 10
-0.5000
 20
0.2071
 30
0.0000
  0
VERTEX
  8
0
 10
-0.2071
 20
0.5000
 30
0.0000
  0
VERTEX
  8
0
 10
0.2071
 20
0.5000
 30
0.0000
  0
VERTEX
  8
0
 10
0.5000
 20
0.2071
 30
0.0000
  0
VERTEX
  8
0
 10
0.5000
 20
-0.2071
 30
0.0000
  0
VERTEX
  8
0
 10
0.2071
 20
-0.5000
 30
0.0000
  0
VERTEX
  8
0
 10
-0.2071
 20
-0.5000
 30
0.0000
  0
SEQEND
  8
0
  0
ENDBLK
  8
0
  0
BLOCK
  8
0
  2
SQUAREV
 70
64
 10
0.0000
 20
0.0000
 30
0.0000
  3
SQUAREV
  0
SOLID
  8
0
 10
-0.5000
 20
-0.5000
 30
0.0000
 11
0.5000
 21
-0.5000
 31
0.0000
 12
-0.5000
 22
0.5000
 32
0.0000
 13
0.5000
 23
0.5000
 33
0.0000
  0
ENDBLK
  8
0
  0
BLOCK
  8
0
  2
ROUNDV
 70
64
 10
0.0000
 20
0.0000
 30
0.0000
  3
ROUNDV
  0
CIRCLE
  8
0
 10
0.0000
 20
0.0000
 30
0.0000
 40
0.5000
  0
ENDBLK
  8
0
  0
BLOCK
  8
0
  2
ANNULUSV
 70
64
 10
0.0000
 20
0.0000
 30
0.0000
  3
ANNULUSV
  0
CIRCLE
  8
0
 10
0.0000
 20
0.0000
 30
0.0000
 40
0.5000
  0
ENDBLK
  8
0
  0
BLOCK
  8
0
  2
THERMALV
 70
64
 10
0.0000
 20
0.0000
 30
0.0000
  3
THERMALV
  0
LINE
  8
0
 10
-0.2379
 20
0.4500
 30
0.0000
 11
0.2379
 21
0.4500
 31
0.0000
  0
LINE
  8
0
 10
0.4500
 20
0.2379
 30
0.0000
 11
0.4500
 21
-0.2379
 31
0.0000
  0
LINE
  8
0
 10
0.2379
 20
-0.4500
 30
0.0000
 11
-0.2379
 21
-0.4500
 31
0.0000
  0
LINE
  8
0
 10
-0.4500
 20
-0.2379
 30
0.0000
 11
-0.4500
 21
0.2379
 31
0.0000
  0
ENDBLK
  8
0
  0
ENDSEC
  0
SECTION
  2
ENTITIES
  0
LINE
  8
20
 10
2.0000
 20
84.5000
 30
0.0000
 11
2.0000
 21
6.5000
 31
0.0000
  0
LINE
  8
20
 10
6.5000
 20
2.0000
 30
0.0000
 11
84.5000
 21
2.0000
 31
0.0000
  0
LINE
  8
20
 10
89.0000
 20
6.5000
 30
0.0000
 11
89.0000
 21
84.5000
 31
0.0000
  0
LINE
  8
20
 10
84.5000
 20
89.0000
 30
0.0000
 11
6.5000
 21
89.0000
 31
0.0000
  0
ARC
  8
20
 10
6.5000
 20
6.5000
 30
0.0000
 40
4.5000
 50
180.0000
 51
270.0000
  0
ARC
  8
20
 10
6.5000
 20
84.5000
 30
0.0000
 40
4.5000
 50
90.0000
 51
180.0000
  0
ARC
  8
20
 10
84.5000
 20
84.5000
 30
0.0000
 40
4.5000
 50
0.0000
 51
90.0000
  0
ARC
  8
20
 10
84.5000
 20
6.5000
 30
0.0000
 40
4.5000
 50
270.0000
 51
0.0000
  0
ARC
  8
20
 10
22.2484
 20
14.4516
 30
0.0000
 40
14.7345
 50
108.7999
 51
161.2001
  0
ARC
  8
20
 10
30.8000
 20
24.6582
 30
0.0000
 40
13.6802
 50
106.1274
 51
163.2534
  0
ARC
  8
20
 10
24.3043
 20
31.2414
 30
0.0000
 40
14.2720
 50
287.0964
 51
342.2906
  0
ARC
  8
20
 10
14.6021
 20
22.0457
 30
0.0000
 40
14.5274
 50
287.6217
 51
341.7656
  0
LINE
  8
20
 10
8.3000
 20
19.2000
 30
0.0000
 11
19.0000
 21
8.2000
 31
0.0000
  0
LINE
  8
20
 10
28.4000
 20
17.5000
 30
0.0000
 11
28.5000
 21
17.6000
 31
0.0000
  0
LINE
  8
20
 10
17.5000
 20
28.4000
 30
0.0000
 11
17.7000
 21
28.6000
 31
0.0000
  0
ARC
  8
20
 10
44.6984
 20
36.9516
 30
0.0000
 40
14.7345
 50
108.7999
 51
161.2001
  0
ARC
  8
20
 10
53.2500
 20
47.1582
 30
0.0000
 40
13.6802
 50
106.1274
 51
163.2534
  0
ARC
  8
20
 10
46.7543
 20
53.7414
 30
0.0000
 40
14.2720
 50
287.0964
 51
342.2906
  0
ARC
  8
20
 10
37.0521
 20
44.5457
 30
0.0000
 40
14.5274
 50
287.6217
 51
341.7656
  0
LINE
  8
20
 10
50.8500
 20
40.0000
 30
0.0000
 11
50.9500
 21
40.1000
 31
0.0000
  0
LINE
  8
20
 10
39.9500
 20
50.9000
 30
0.0000
 11
40.1500
 21
51.1000
 31
0.0000
  0
ARC
  8
20
 10
67.1984
 20
59.4016
 30
0.0000
 40
14.7345
 50
108.7999
 51
161.2001
  0
ARC
  8
20
 10
75.7500
 20
69.6082
 30
0.0000
 40
13.6802
 50
106.1274
 51
163.2534
  0
ARC
  8
20
 10
69.2543
 20
76.1914
 30
0.0000
 40
14.2720
 50
287.0964
 51
342.2906
  0
ARC
  8
20
 10
59.5521
 20
66.9957
 30
0.0000
 40
14.5274
 50
287.6217
 51
341.7656
  0
LINE
  8
20
 10
73.3500
 20
62.4500
 30
0.0000
 11
73.4500
 21
62.5500
 31
0.0000
  0
LINE
  8
20
 10
82.8500
 20
71.8500
 30
0.0000
 11
71.9500
 21
82.7500
 31
0.0000
  0
LINE
  8
20
 10
62.4500
 20
73.3500
 30
0.0000
 11
62.6500
 21
73.5500
 31
0.0000
  0
LINE
  8
20
 10
37.7500
 20
28.4500
 30
0.0000
 11
37.1000
 21
27.7000
 31
0.0000
  0
LINE
  8
20
 10
34.9000
 20
29.9000
 30
0.0000
 11
35.6000
 21
30.6000
 31
0.0000
  0
LINE
  8
20
 10
40.1000
 20
30.8000
 30
0.0000
 11
40.8000
 21
31.4000
 31
0.0000
  0
LINE
  8
20
 10
38.3000
 20
32.9000
 30
0.0000
 11
38.8000
 21
33.4000
 31
0.0000
  0
LINE
  8
20
 10
60.2000
 20
50.9000
 30
0.0000
 11
59.5000
 21
50.2000
 31
0.0000
  0
LINE
  8
20
 10
57.3000
 20
52.4000
 30
0.0000
 11
58.0500
 21
53.1500
 31
0.0000
  0
LINE
  8
20
 10
61.2000
 20
56.0000
 30
0.0000
 11
60.6000
 21
55.4000
 31
0.0000
  0
LINE
  8
20
 10
62.5000
 20
53.5000
 30
0.0000
 11
63.1000
 21
54.0000
 31
0.0000
  0
LINE
  8
20
 10
63.1000
 20
54.0000
 30
0.0000
 11
63.9500
 21
53.1500
 31
0.0000
  0
LINE
  8
20
 10
61.2000
 20
56.0000
 30
0.0000
 11
53.2500
 21
64.1500
 31
0.0000
  0
LINE
  8
20
 10
59.5000
 20
50.2000
 30
0.0000
 11
60.3500
 21
49.4000
 31
0.0000
  0
LINE
  8
20
 10
57.3000
 20
52.4000
 30
0.0000
 11
49.4500
 21
60.3000
 31
0.0000
  0
ARC
  8
20
 10
60.3618
 20
53.1000
 30
0.0000
 40
2.3123
 50
84.0872
 51
178.7610
  0
ARC
  8
20
 10
60.3000
 20
53.1288
 30
0.0000
 40
2.2311
 50
267.4310
 51
9.5772
  0
ARC
  8
20
 10
37.9296
 20
30.6000
 30
0.0000
 40
2.3296
 50
80.8514
 51
180.0000
  0
ARC
  8
20
 10
37.8000
 20
30.7500
 30
0.0000
 40
2.3005
 50
268.7546
 51
1.2454
  0
LINE
  8
20
 10
37.9000
 20
26.9000
 30
0.0000
 11
37.1000
 21
27.7000
 31
0.0000
  0
LINE
  8
20
 10
34.9000
 20
29.9000
 30
0.0000
 11
27.0000
 21
37.8000
 31
0.0000
  0
LINE
  8
20
 10
40.8000
 20
31.4000
 30
0.0000
 11
41.4500
 21
30.7000
 31
0.0000
  0
LINE
  8
20
 10
38.8000
 20
33.4000
 30
0.0000
 11
30.7500
 21
41.7000
 31
0.0000
  0
CIRCLE
  8
20
 10
29.8000
 20
10.0000
 30
0.0000
 40
2.2500
  0
CIRCLE
  8
20
 10
38.3000
 20
18.6000
 30
0.0000
 40
2.2500
  0
CIRCLE
  8
20
 10
46.8500
 20
27.1000
 30
0.0000
 40
2.2500
  0
CIRCLE
  8
20
 10
55.4000
 20
35.6000
 30
0.0000
 40
2.2500
  0
CIRCLE
  8
20
 10
63.9000
 20
44.1500
 30
0.0000
 40
2.2500
  0
CIRCLE
  8
20
 10
72.4500
 20
52.7000
 30
0.0000
 40
2.2500
  0
CIRCLE
  8
20
 10
80.9500
 20
61.2000
 30
0.0000
 40
2.2500
  0
CIRCLE
  8
20
 10
70.5000
 20
3.5000
 30
0.0000
 40
0.7500
  0
CIRCLE
  8
20
 10
15.5000
 20
3.5000
 30
0.0000
 40
0.7500
  0
CIRCLE
  8
20
 10
3.5000
 20
10.5000
 30
0.0000
 40
0.7500
  0
CIRCLE
  8
20
 10
3.5000
 20
65.5000
 30
0.0000
 40
0.7500
  0
CIRCLE
  8
20
 10
20.5000
 20
87.5000
 30
0.0000
 40
0.7500
  0
CIRCLE
  8
20
 10
65.5000
 20
87.5000
 30
0.0000
 40
0.7500
  0
CIRCLE
  8
20
 10
87.5000
 20
80.5000
 30
0.0000
 40
0.7500
  0
CIRCLE
  8
20
 10
87.5000
 20
25.5000
 30
0.0000
 40
0.7500
  0
ENDSEC
  0
EOF
