  0
SECTION
  2
HEADER
  9
$ACADVER
  1
AC1009
  9
$FILLMODE
 70
0
  9
$EXTMIN
 10
-67.2256
 20
-67.2256
 30
0.0000
  9
$EXTMAX
 10
89.0112
 20
89.0112
 30
0.0000
  0
ENDSEC
  0
SECTION
  2
TABLES
  0
TABLE
  2
LTYPE
 70
1
  0
LTYPE
  2
CONTINUOUS
 70
64
  3
Solid line
 72
65
 73
0
 40
0
  0
ENDTAB
  0
TABLE
  2
LAYER
 70
255
  0
LAYER
  2
20
 70
64
 62
7
  6
CONTINUOUS
  0
ENDTAB
  0
ENDSEC
  0
SECTION
  2
BLOCKS
  0
BLOCK
  8
0
  2
RECT
 70
64
 10
0.0000
 20
0.0000
 30
0.0000
  3
RECT
  0
SOLID
  8
0
 10
-0.5000
 20
-0.5000
 30
0.0000
 11
0.5000
 21
-0.5000
 31
0.0000
 12
-0.5000
 22
0.5000
 32
0.0000
 13
0.5000
 23
0.5000
 33
0.0000
  0
ENDBLK
  8
0
  0
BLOCK
  8
0
  2
PIE
 70
64
 10
0.0000
 20
0.0000
 30
0.0000
  3
PIE
  0
CIRCLE
  8
0
 10
0.0000
 20
0.0000
 30
0.0000
 40
0.5000
  0
ENDBLK
  8
0
  0
BLOCK
  8
0
  2
OCTAGONP
 70
64
 10
0.0000
 20
0.0000
 30
0.0000
  3
OCTAGONP
  0
POLYLINE
  8
0
 66
1
 10
0.0000
 20
0.0000
 30
0.0000
 40
0.0000
 41
0.0000
 70
1
  0
VERTEX
  8
0
 10
-0.5000
 20
-0.2071
 30
0.0000
  0
VERTEX
  8
0
 10
-0.5000
 20
0.2071
 30
0.0000
  0
VERTEX
  8
0
 10
-0.2071
 20
0.5000
 30
0.0000
  0
VERTEX
  8
0
 10
0.2071
 20
0.5000
 30
0.0000
  0
VERTEX
  8
0
 10
0.5000
 20
0.2071
 30
0.0000
  0
VERTEX
  8
0
 10
0.5000
 20
-0.2071
 30
0.0000
  0
VERTEX
  8
0
 10
0.2071
 20
-0.5000
 30
0.0000
  0
VERTEX
  8
0
 10
-0.2071
 20
-0.5000
 30
0.0000
  0
SEQEND
  8
0
  0
ENDBLK
  8
0
  0
BLOCK
  8
0
  2
SQUAREP
 70
64
 10
0.0000
 20
0.0000
 30
0.0000
  3
SQUAREP
  0
SOLID
  8
0
 10
-0.5000
 20
-0.5000
 30
0.0000
 11
0.5000
 21
-0.5000
 31
0.0000
 12
-0.5000
 22
0.5000
 32
0.0000
 13
0.5000
 23
0.5000
 33
0.0000
  0
ENDBLK
  8
0
  0
BLOCK
  8
0
  2
ROUNDP
 70
64
 10
0.0000
 20
0.0000
 30
0.0000
  3
ROUNDP
  0
CIRCLE
  8
0
 10
0.0000
 20
0.0000
 30
0.0000
 40
0.5000
  0
ENDBLK
  8
0
  0
BLOCK
  8
0
  2
ANNULUSP
 70
64
 10
0.0000
 20
0.0000
 30
0.0000
  3
ANNULUSP
  0
CIRCLE
  8
0
 10
0.0000
 20
0.0000
 30
0.0000
 40
0.5000
  0
ENDBLK
  8
0
  0
BLOCK
  8
0
  2
THERMALP
 70
64
 10
0.0000
 20
0.0000
 30
0.0000
  3
THERMALP
  0
LINE
  8
0
 10
-0.2379
 20
0.4500
 30
0.0000
 11
0.2379
 21
0.4500
 31
0.0000
  0
LINE
  8
0
 10
0.4500
 20
0.2379
 30
0.0000
 11
0.4500
 21
-0.2379
 31
0.0000
  0
LINE
  8
0
 10
0.2379
 20
-0.4500
 30
0.0000
 11
-0.2379
 21
-0.4500
 31
0.0000
  0
LINE
  8
0
 10
-0.4500
 20
-0.2379
 30
0.0000
 11
-0.4500
 21
0.2379
 31
0.0000
  0
ENDBLK
  8
0
  0
BLOCK
  8
0
  2
OCTAGONV
 70
64
 10
0.0000
 20
0.0000
 30
0.0000
  3
OCTAGONV
  0
POLYLINE
  8
0
 66
1
 10
0.0000
 20
0.0000
 30
0.0000
 40
0.0000
 41
0.0000
 70
1
  0
VERTEX
  8
0
 10
-0.5000
 20
-0.2071
 30
0.0000
  0
VERTEX
  8
0
 10
-0.5000
 20
0.2071
 30
0.0000
  0
VERTEX
  8
0
 10
-0.2071
 20
0.5000
 30
0.0000
  0
VERTEX
  8
0
 10
0.2071
 20
0.5000
 30
0.0000
  0
VERTEX
  8
0
 10
0.5000
 20
0.2071
 30
0.0000
  0
VERTEX
  8
0
 10
0.5000
 20
-0.2071
 30
0.0000
  0
VERTEX
  8
0
 10
0.2071
 20
-0.5000
 30
0.0000
  0
VERTEX
  8
0
 10
-0.2071
 20
-0.5000
 30
0.0000
  0
SEQEND
  8
0
  0
ENDBLK
  8
0
  0
BLOCK
  8
0
  2
SQUAREV
 70
64
 10
0.0000
 20
0.0000
 30
0.0000
  3
SQUAREV
  0
SOLID
  8
0
 10
-0.5000
 20
-0.5000
 30
0.0000
 11
0.5000
 21
-0.5000
 31
0.0000
 12
-0.5000
 22
0.5000
 32
0.0000
 13
0.5000
 23
0.5000
 33
0.0000
  0
ENDBLK
  8
0
  0
BLOCK
  8
0
  2
ROUNDV
 70
64
 10
0.0000
 20
0.0000
 30
0.0000
  3
ROUNDV
  0
CIRCLE
  8
0
 10
0.0000
 20
0.0000
 30
0.0000
 40
0.5000
  0
ENDBLK
  8
0
  0
BLOCK
  8
0
  2
ANNULUSV
 70
64
 10
0.0000
 20
0.0000
 30
0.0000
  3
ANNULUSV
  0
CIRCLE
  8
0
 10
0.0000
 20
0.0000
 30
0.0000
 40
0.5000
  0
ENDBLK
  8
0
  0
BLOCK
  8
0
  2
THERMALV
 70
64
 10
0.0000
 20
0.0000
 30
0.0000
  3
THERMALV
  0
LINE
  8
0
 10
-0.2379
 20
0.4500
 30
0.0000
 11
0.2379
 21
0.4500
 31
0.0000
  0
LINE
  8
0
 10
0.4500
 20
0.2379
 30
0.0000
 11
0.4500
 21
-0.2379
 31
0.0000
  0
LINE
  8
0
 10
0.2379
 20
-0.4500
 30
0.0000
 11
-0.2379
 21
-0.4500
 31
0.0000
  0
LINE
  8
0
 10
-0.4500
 20
-0.2379
 30
0.0000
 11
-0.4500
 21
0.2379
 31
0.0000
  0
ENDBLK
  8
0
  0
ENDSEC
  0
SECTION
  2
ENTITIES
  0
ARC
  8
20
 10
6.5000
 20
84.5000
 30
0.0000
 40
1.5000
 50
90.0000
 51
180.0000
  0
ARC
  8
20
 10
6.5000
 20
6.5000
 30
0.0000
 40
1.5000
 50
180.0000
 51
270.0000
  0
ARC
  8
20
 10
84.5000
 20
6.5000
 30
0.0000
 40
1.5000
 50
270.0000
 51
0.0000
  0
ARC
  8
20
 10
84.5000
 20
84.5000
 30
0.0000
 40
1.5000
 50
0.0000
 51
90.0000
  0
LINE
  8
20
 10
86.0000
 20
84.5000
 30
0.0000
 11
86.0000
 21
6.5000
 31
0.0000
  0
LINE
  8
20
 10
84.5000
 20
5.0000
 30
0.0000
 11
6.5000
 21
5.0000
 31
0.0000
  0
LINE
  8
20
 10
5.0000
 20
6.5000
 30
0.0000
 11
5.0000
 21
84.5000
 31
0.0000
  0
LINE
  8
20
 10
6.5000
 20
86.0000
 30
0.0000
 11
84.5000
 21
86.0000
 31
0.0000
  0
LINE
  8
20
 10
2.0000
 20
84.5000
 30
0.0000
 11
2.0000
 21
6.5000
 31
0.0000
  0
LINE
  8
20
 10
6.5000
 20
2.0000
 30
0.0000
 11
84.5000
 21
2.0000
 31
0.0000
  0
LINE
  8
20
 10
89.0000
 20
6.5000
 30
0.0000
 11
89.0000
 21
84.5000
 31
0.0000
  0
LINE
  8
20
 10
84.5000
 20
89.0000
 30
0.0000
 11
6.5000
 21
89.0000
 31
0.0000
  0
ARC
  8
20
 10
6.5000
 20
6.5000
 30
0.0000
 40
4.5000
 50
180.0000
 51
270.0000
  0
ARC
  8
20
 10
6.5000
 20
84.5000
 30
0.0000
 40
4.5000
 50
90.0000
 51
180.0000
  0
ARC
  8
20
 10
84.5000
 20
84.5000
 30
0.0000
 40
4.5000
 50
0.0000
 51
90.0000
  0
ARC
  8
20
 10
84.5000
 20
6.5000
 30
0.0000
 40
4.5000
 50
270.0000
 51
0.0000
  0
LINE
  8
20
 10
6.5001
 20
33.5000
 30
0.0000
 11
57.5000
 21
84.4999
 31
0.0000
  0
LINE
  8
20
 10
84.4999
 20
47.4999
 30
0.0000
 11
43.5001
 21
6.5001
 31
0.0000
  0
ARC
  8
20
 10
7.5001
 20
7.5001
 30
0.0000
 40
1.0000
 50
180.0000
 51
270.0000
  0
ARC
  8
20
 10
82.9999
 20
82.9999
 30
0.0000
 40
1.5000
 50
0.0000
 51
90.0000
  0
LINE
  8
20
 10
82.9999
 20
84.4999
 30
0.0000
 11
57.5000
 21
84.4999
 31
0.0000
  0
LINE
  8
20
 10
84.4999
 20
82.9999
 30
0.0000
 11
84.4999
 21
47.4999
 31
0.0000
  0
LINE
  8
20
 10
6.5001
 20
7.5001
 30
0.0000
 11
6.5001
 21
33.5000
 31
0.0000
  0
LINE
  8
20
 10
7.5001
 20
6.5001
 30
0.0000
 11
43.5001
 21
6.5001
 31
0.0000
  0
ARC
  8
20
 10
22.2485
 20
14.4517
 30
0.0000
 40
14.7344
 50
108.8000
 51
161.2000
  0
ARC
  8
20
 10
30.8019
 20
24.6564
 30
0.0000
 40
13.6825
 50
106.1320
 51
163.2480
  0
ARC
  8
20
 10
24.3013
 20
31.2447
 30
0.0000
 40
14.2759
 50
287.1046
 51
342.2825
  0
ARC
  8
20
 10
14.6039
 20
22.0440
 30
0.0000
 40
14.5251
 50
287.6171
 51
341.7701
  0
LINE
  8
20
 10
8.3002
 20
19.2001
 30
0.0000
 11
19.0000
 21
8.2001
 31
0.0000
  0
LINE
  8
20
 10
28.4000
 20
17.5001
 30
0.0000
 11
28.5001
 21
17.6002
 31
0.0000
  0
LINE
  8
20
 10
17.5001
 20
28.4000
 30
0.0000
 11
17.7001
 21
28.6001
 31
0.0000
  0
ARC
  8
20
 10
44.6984
 20
36.9516
 30
0.0000
 40
14.7344
 50
108.7995
 51
161.1996
  0
ARC
  8
20
 10
53.2517
 20
47.1564
 30
0.0000
 40
13.6823
 50
106.1327
 51
163.2487
  0
ARC
  8
20
 10
46.7512
 20
53.7444
 30
0.0000
 40
14.2758
 50
287.1044
 51
342.2824
  0
ARC
  8
20
 10
37.0537
 20
44.5444
 30
0.0000
 40
14.5254
 50
287.6175
 51
341.7689
  0
LINE
  8
20
 10
50.8500
 20
40.0001
 30
0.0000
 11
50.9499
 21
40.1000
 31
0.0000
  0
LINE
  8
20
 10
39.9501
 20
50.9000
 30
0.0000
 11
40.1500
 21
51.0999
 31
0.0000
  0
ARC
  8
20
 10
67.1983
 20
59.4015
 30
0.0000
 40
14.7344
 50
108.8000
 51
161.2000
  0
ARC
  8
20
 10
75.7517
 20
69.6063
 30
0.0000
 40
13.6823
 50
106.1322
 51
163.2483
  0
ARC
  8
20
 10
69.2511
 20
76.1945
 30
0.0000
 40
14.2759
 50
287.1046
 51
342.2825
  0
ARC
  8
20
 10
59.5537
 20
66.9938
 30
0.0000
 40
14.5251
 50
287.6175
 51
341.7701
  0
LINE
  8
20
 10
73.3498
 20
62.4499
 30
0.0000
 11
73.4499
 21
62.5500
 31
0.0000
  0
LINE
  8
20
 10
82.8499
 20
71.8500
 30
0.0000
 11
71.9500
 21
82.7499
 31
0.0000
  0
LINE
  8
20
 10
62.4499
 20
73.3498
 30
0.0000
 11
62.6500
 21
73.5499
 31
0.0000
  0
LINE
  8
20
 10
37.7500
 20
28.4501
 30
0.0000
 11
37.1001
 21
27.7001
 31
0.0000
  0
LINE
  8
20
 10
34.9001
 20
29.9001
 30
0.0000
 11
35.6001
 21
30.6001
 31
0.0000
  0
LINE
  8
20
 10
40.1000
 20
30.8001
 30
0.0000
 11
40.8001
 21
31.4001
 31
0.0000
  0
LINE
  8
20
 10
38.3000
 20
32.9001
 30
0.0000
 11
38.8000
 21
33.4001
 31
0.0000
  0
LINE
  8
20
 10
60.1999
 20
50.9000
 30
0.0000
 11
59.4998
 21
50.1999
 31
0.0000
  0
LINE
  8
20
 10
57.2999
 20
52.3999
 30
0.0000
 11
58.0499
 21
53.1499
 31
0.0000
  0
LINE
  8
20
 10
61.1998
 20
55.9999
 30
0.0000
 11
60.5999
 21
55.3999
 31
0.0000
  0
LINE
  8
20
 10
62.4999
 20
53.4999
 30
0.0000
 11
63.0998
 21
53.9999
 31
0.0000
  0
LINE
  8
20
 10
63.0998
 20
53.9999
 30
0.0000
 11
63.9499
 21
53.1499
 31
0.0000
  0
LINE
  8
20
 10
61.1998
 20
55.9999
 30
0.0000
 11
53.2500
 21
64.1499
 31
0.0000
  0
LINE
  8
20
 10
59.4998
 20
50.1999
 30
0.0000
 11
60.3499
 21
49.3999
 31
0.0000
  0
LINE
  8
20
 10
57.2999
 20
52.3999
 30
0.0000
 11
49.4499
 21
60.2999
 31
0.0000
  0
ARC
  8
20
 10
60.3619
 20
53.0996
 30
0.0000
 40
2.3125
 50
84.0929
 51
178.7537
  0
ARC
  8
20
 10
60.2994
 20
53.1293
 30
0.0000
 40
2.2315
 50
267.4444
 51
9.5598
  0
ARC
  8
20
 10
37.9296
 20
30.6002
 30
0.0000
 40
2.3295
 50
80.8510
 51
180.0025
  0
ARC
  8
20
 10
37.8000
 20
30.7501
 30
0.0000
 40
2.3005
 50
268.7546
 51
1.2454
  0
LINE
  8
20
 10
37.9001
 20
26.9002
 30
0.0000
 11
37.1001
 21
27.7001
 31
0.0000
  0
LINE
  8
20
 10
34.9001
 20
29.9001
 30
0.0000
 11
27.0002
 21
37.8001
 31
0.0000
  0
LINE
  8
20
 10
40.8001
 20
31.4001
 30
0.0000
 11
41.4500
 21
30.7002
 31
0.0000
  0
LINE
  8
20
 10
38.8000
 20
33.4001
 30
0.0000
 11
30.7501
 21
41.7001
 31
0.0000
  0
CIRCLE
  8
20
 10
29.8001
 20
10.0001
 30
0.0000
 40
2.2500
  0
CIRCLE
  8
20
 10
38.3001
 20
18.6001
 30
0.0000
 40
2.2500
  0
CIRCLE
  8
20
 10
46.8500
 20
27.1001
 30
0.0000
 40
2.2500
  0
CIRCLE
  8
20
 10
55.3999
 20
35.6001
 30
0.0000
 40
2.2500
  0
CIRCLE
  8
20
 10
63.8999
 20
44.1500
 30
0.0000
 40
2.2500
  0
CIRCLE
  8
20
 10
72.4498
 20
52.6999
 30
0.0000
 40
2.2500
  0
CIRCLE
  8
20
 10
80.9499
 20
61.2000
 30
0.0000
 40
2.2500
  0
CIRCLE
  8
20
 10
80.5000
 20
3.5000
 30
0.0000
 40
0.5500
  0
CIRCLE
  8
20
 10
25.5000
 20
3.5000
 30
0.0000
 40
0.5500
  0
CIRCLE
  8
20
 10
3.5000
 20
20.5000
 30
0.0000
 40
0.5500
  0
CIRCLE
  8
20
 10
3.5000
 20
75.5000
 30
0.0000
 40
0.5500
  0
CIRCLE
  8
20
 10
70.5000
 20
3.5000
 30
0.0000
 40
0.7500
  0
CIRCLE
  8
20
 10
15.5000
 20
3.5000
 30
0.0000
 40
0.7500
  0
CIRCLE
  8
20
 10
3.5000
 20
10.5000
 30
0.0000
 40
0.7500
  0
CIRCLE
  8
20
 10
3.5000
 20
65.5000
 30
0.0000
 40
0.7500
  0
CIRCLE
  8
20
 10
20.5000
 20
87.5000
 30
0.0000
 40
0.7500
  0
CIRCLE
  8
20
 10
65.5000
 20
87.5000
 30
0.0000
 40
0.7500
  0
CIRCLE
  8
20
 10
87.5000
 20
80.5000
 30
0.0000
 40
0.7500
  0
CIRCLE
  8
20
 10
87.5000
 20
25.5000
 30
0.0000
 40
0.7500
  0
CIRCLE
  8
20
 10
10.5000
 20
87.5000
 30
0.0000
 40
0.5500
  0
CIRCLE
  8
20
 10
75.5000
 20
87.5000
 30
0.0000
 40
0.5500
  0
CIRCLE
  8
20
 10
87.5000
 20
70.5000
 30
0.0000
 40
0.5500
  0
CIRCLE
  8
20
 10
87.5000
 20
15.5000
 30
0.0000
 40
0.5500
  0
CIRCLE
  8
20
 10
8.6461
 20
8.6461
 30
0.0000
 40
1.0500
  0
CIRCLE
  8
20
 10
82.3539
 20
82.3539
 30
0.0000
 40
1.0500
  0
CIRCLE
  8
20
 10
45.5000
 20
11.5589
 30
0.0000
 40
0.7500
  0
CIRCLE
  8
20
 10
40.1967
 20
25.3475
 30
0.0000
 40
0.7500
  0
CIRCLE
  8
20
 10
65.6525
 20
50.8033
 30
0.0000
 40
0.7500
  0
CIRCLE
  8
20
 10
62.4705
 20
28.5295
 30
0.0000
 40
0.7500
  0
CIRCLE
  8
20
 10
79.4411
 20
45.5000
 30
0.0000
 40
0.7500
  0
CIRCLE
  8
20
 10
56.1066
 20
80.1482
 30
0.0000
 40
0.7500
  0
CIRCLE
  8
20
 10
33.4792
 20
57.5208
 30
0.0000
 40
0.7500
  0
CIRCLE
  8
20
 10
10.8518
 20
34.8934
 30
0.0000
 40
0.7500
  0
CIRCLE
  8
20
 10
26.4082
 20
41.9645
 30
0.0000
 40
0.7500
  0
CIRCLE
  8
20
 10
49.0355
 20
64.5918
 30
0.0000
 40
0.7500
  0
ENDSEC
  0
EOF
