  0
SECTION
  2
HEADER
  9
$ACADVER
  1
AC1009
  9
$FILLMODE
 70
0
  9
$EXTMIN
 10
0.0000
 20
0.0000
 30
0.0000
  9
$EXTMAX
 10
100.0192
 20
78.7200
 30
0.0000
  0
ENDSEC
  0
SECTION
  2
TABLES
  0
TABLE
  2
LTYPE
 70
1
  0
LTYPE
  2
CONTINUOUS
 70
64
  3
Solid line
 72
65
 73
0
 40
0
  0
ENDTAB
  0
TABLE
  2
LAYER
 70
255
  0
LAYER
  2
1
 70
64
 62
22
  6
CONTINUOUS
  0
LAYER
  2
16
 70
64
 62
175
  6
CONTINUOUS
  0
LAYER
  2
17
 70
64
 62
82
  6
CONTINUOUS
  0
LAYER
  2
18
 70
64
 62
82
  6
CONTINUOUS
  0
LAYER
  2
19
 70
64
 62
53
  6
CONTINUOUS
  0
LAYER
  2
20
 70
64
 62
7
  6
CONTINUOUS
  0
LAYER
  2
21
 70
64
 62
253
  6
CONTINUOUS
  0
LAYER
  2
22
 70
64
 62
253
  6
CONTINUOUS
  0
LAYER
  2
23
 70
64
 62
7
  6
CONTINUOUS
  0
LAYER
  2
24
 70
64
 62
7
  6
CONTINUOUS
  0
LAYER
  2
25
 70
64
 62
253
  6
CONTINUOUS
  0
LAYER
  2
26
 70
64
 62
253
  6
CONTINUOUS
  0
LAYER
  2
27
 70
64
 62
253
  6
CONTINUOUS
  0
LAYER
  2
28
 70
64
 62
253
  6
CONTINUOUS
  0
LAYER
  2
39
 70
64
 62
22
  6
CONTINUOUS
  0
LAYER
  2
40
 70
64
 62
175
  6
CONTINUOUS
  0
LAYER
  2
41
 70
64
 62
22
  6
CONTINUOUS
  0
LAYER
  2
42
 70
64
 62
175
  6
CONTINUOUS
  0
LAYER
  2
43
 70
64
 62
82
  6
CONTINUOUS
  0
LAYER
  2
48
 70
64
 62
253
  6
CONTINUOUS
  0
LAYER
  2
49
 70
64
 62
253
  6
CONTINUOUS
  0
LAYER
  2
51
 70
64
 62
253
  6
CONTINUOUS
  0
LAYER
  2
52
 70
64
 62
253
  6
CONTINUOUS
  0
ENDTAB
  0
ENDSEC
  0
SECTION
  2
BLOCKS
  0
BLOCK
  8
0
  2
RECT
 70
64
 10
0.0000
 20
0.0000
 30
0.0000
  3
RECT
  0
SOLID
  8
0
 10
-0.5000
 20
-0.5000
 30
0.0000
 11
0.5000
 21
-0.5000
 31
0.0000
 12
-0.5000
 22
0.5000
 32
0.0000
 13
0.5000
 23
0.5000
 33
0.0000
  0
ENDBLK
  8
0
  0
BLOCK
  8
0
  2
PIE
 70
64
 10
0.0000
 20
0.0000
 30
0.0000
  3
PIE
  0
CIRCLE
  8
0
 10
0.0000
 20
0.0000
 30
0.0000
 40
0.5000
  0
ENDBLK
  8
0
  0
BLOCK
  8
0
  2
OCTAGONP
 70
64
 10
0.0000
 20
0.0000
 30
0.0000
  3
OCTAGONP
  0
POLYLINE
  8
0
 66
1
 10
0.0000
 20
0.0000
 30
0.0000
 40
0.0000
 41
0.0000
 70
1
  0
VERTEX
  8
0
 10
-0.5000
 20
-0.2071
 30
0.0000
  0
VERTEX
  8
0
 10
-0.5000
 20
0.2071
 30
0.0000
  0
VERTEX
  8
0
 10
-0.2071
 20
0.5000
 30
0.0000
  0
VERTEX
  8
0
 10
0.2071
 20
0.5000
 30
0.0000
  0
VERTEX
  8
0
 10
0.5000
 20
0.2071
 30
0.0000
  0
VERTEX
  8
0
 10
0.5000
 20
-0.2071
 30
0.0000
  0
VERTEX
  8
0
 10
0.2071
 20
-0.5000
 30
0.0000
  0
VERTEX
  8
0
 10
-0.2071
 20
-0.5000
 30
0.0000
  0
SEQEND
  8
0
  0
ENDBLK
  8
0
  0
BLOCK
  8
0
  2
SQUAREP
 70
64
 10
0.0000
 20
0.0000
 30
0.0000
  3
SQUAREP
  0
SOLID
  8
0
 10
-0.5000
 20
-0.5000
 30
0.0000
 11
0.5000
 21
-0.5000
 31
0.0000
 12
-0.5000
 22
0.5000
 32
0.0000
 13
0.5000
 23
0.5000
 33
0.0000
  0
ENDBLK
  8
0
  0
BLOCK
  8
0
  2
ROUNDP
 70
64
 10
0.0000
 20
0.0000
 30
0.0000
  3
ROUNDP
  0
CIRCLE
  8
0
 10
0.0000
 20
0.0000
 30
0.0000
 40
0.5000
  0
ENDBLK
  8
0
  0
BLOCK
  8
0
  2
ANNULUSP
 70
64
 10
0.0000
 20
0.0000
 30
0.0000
  3
ANNULUSP
  0
CIRCLE
  8
0
 10
0.0000
 20
0.0000
 30
0.0000
 40
0.5000
  0
ENDBLK
  8
0
  0
BLOCK
  8
0
  2
THERMALP
 70
64
 10
0.0000
 20
0.0000
 30
0.0000
  3
THERMALP
  0
LINE
  8
0
 10
-0.2379
 20
0.4500
 30
0.0000
 11
0.2379
 21
0.4500
 31
0.0000
  0
LINE
  8
0
 10
0.4500
 20
0.2379
 30
0.0000
 11
0.4500
 21
-0.2379
 31
0.0000
  0
LINE
  8
0
 10
0.2379
 20
-0.4500
 30
0.0000
 11
-0.2379
 21
-0.4500
 31
0.0000
  0
LINE
  8
0
 10
-0.4500
 20
-0.2379
 30
0.0000
 11
-0.4500
 21
0.2379
 31
0.0000
  0
ENDBLK
  8
0
  0
BLOCK
  8
0
  2
OCTAGONV
 70
64
 10
0.0000
 20
0.0000
 30
0.0000
  3
OCTAGONV
  0
POLYLINE
  8
0
 66
1
 10
0.0000
 20
0.0000
 30
0.0000
 40
0.0000
 41
0.0000
 70
1
  0
VERTEX
  8
0
 10
-0.5000
 20
-0.2071
 30
0.0000
  0
VERTEX
  8
0
 10
-0.5000
 20
0.2071
 30
0.0000
  0
VERTEX
  8
0
 10
-0.2071
 20
0.5000
 30
0.0000
  0
VERTEX
  8
0
 10
0.2071
 20
0.5000
 30
0.0000
  0
VERTEX
  8
0
 10
0.5000
 20
0.2071
 30
0.0000
  0
VERTEX
  8
0
 10
0.5000
 20
-0.2071
 30
0.0000
  0
VERTEX
  8
0
 10
0.2071
 20
-0.5000
 30
0.0000
  0
VERTEX
  8
0
 10
-0.2071
 20
-0.5000
 30
0.0000
  0
SEQEND
  8
0
  0
ENDBLK
  8
0
  0
BLOCK
  8
0
  2
SQUAREV
 70
64
 10
0.0000
 20
0.0000
 30
0.0000
  3
SQUAREV
  0
SOLID
  8
0
 10
-0.5000
 20
-0.5000
 30
0.0000
 11
0.5000
 21
-0.5000
 31
0.0000
 12
-0.5000
 22
0.5000
 32
0.0000
 13
0.5000
 23
0.5000
 33
0.0000
  0
ENDBLK
  8
0
  0
BLOCK
  8
0
  2
ROUNDV
 70
64
 10
0.0000
 20
0.0000
 30
0.0000
  3
ROUNDV
  0
CIRCLE
  8
0
 10
0.0000
 20
0.0000
 30
0.0000
 40
0.5000
  0
ENDBLK
  8
0
  0
BLOCK
  8
0
  2
ANNULUSV
 70
64
 10
0.0000
 20
0.0000
 30
0.0000
  3
ANNULUSV
  0
CIRCLE
  8
0
 10
0.0000
 20
0.0000
 30
0.0000
 40
0.5000
  0
ENDBLK
  8
0
  0
BLOCK
  8
0
  2
THERMALV
 70
64
 10
0.0000
 20
0.0000
 30
0.0000
  3
THERMALV
  0
LINE
  8
0
 10
-0.2379
 20
0.4500
 30
0.0000
 11
0.2379
 21
0.4500
 31
0.0000
  0
LINE
  8
0
 10
0.4500
 20
0.2379
 30
0.0000
 11
0.4500
 21
-0.2379
 31
0.0000
  0
LINE
  8
0
 10
0.2379
 20
-0.4500
 30
0.0000
 11
-0.2379
 21
-0.4500
 31
0.0000
  0
LINE
  8
0
 10
-0.4500
 20
-0.2379
 30
0.0000
 11
-0.4500
 21
0.2379
 31
0.0000
  0
ENDBLK
  8
0
  0
ENDSEC
  0
SECTION
  2
ENTITIES
  0
LINE
  8
20
 10
50.9000
 20
78.7000
 30
0.0000
 11
100.0000
 21
78.7000
 31
0.0000
  0
LINE
  8
20
 10
100.0000
 20
78.7000
 30
0.0000
 11
100.0000
 21
51.0000
 31
0.0000
  0
LINE
  8
20
 10
54.9000
 20
51.0000
 30
0.0000
 11
50.9000
 21
51.0000
 31
0.0000
  0
LINE
  8
20
 10
50.9000
 20
51.0000
 30
0.0000
 11
50.9000
 21
78.7000
 31
0.0000
  0
LINE
  8
20
 10
67.9000
 20
67.0050
 30
0.0000
 11
88.9000
 21
67.0050
 31
0.0000
  0
LINE
  8
20
 10
88.9000
 20
67.0050
 30
0.0000
 11
88.9000
 21
54.0000
 31
0.0000
  0
LINE
  8
20
 10
88.9000
 20
54.0000
 30
0.0000
 11
67.9000
 21
54.0000
 31
0.0000
  0
LINE
  8
20
 10
67.9000
 20
54.0000
 30
0.0000
 11
67.9000
 21
67.0050
 31
0.0000
  0
LINE
  8
20
 10
100.0000
 20
51.0000
 30
0.0000
 11
54.9000
 21
51.0000
 31
0.0000
  0
LINE
  8
20
 10
0.0000
 20
51.0000
 30
0.0000
 11
49.1000
 21
51.0000
 31
0.0000
  0
LINE
  8
20
 10
49.1000
 20
51.0000
 30
0.0000
 11
49.1000
 21
78.7000
 31
0.0000
  0
LINE
  8
20
 10
49.1000
 20
78.7000
 30
0.0000
 11
0.0000
 21
78.7000
 31
0.0000
  0
LINE
  8
20
 10
0.0000
 20
78.7000
 30
0.0000
 11
0.0000
 21
51.0000
 31
0.0000
  0
LINE
  8
20
 10
13.4000
 20
63.5000
 30
0.0000
 11
36.5000
 21
63.5000
 31
0.0000
  0
LINE
  8
20
 10
37.5000
 20
62.5000
 30
0.0000
 11
37.5000
 21
59.5000
 31
0.0000
  0
LINE
  8
20
 10
36.5000
 20
58.5000
 30
0.0000
 11
13.4000
 21
58.5000
 31
0.0000
  0
LINE
  8
20
 10
12.4000
 20
59.5000
 30
0.0000
 11
12.4000
 21
62.5000
 31
0.0000
  0
ARC
  8
20
 10
36.5000
 20
62.5000
 30
0.0000
 40
1.0000
 50
0.0000
 51
90.0000
  0
ARC
  8
20
 10
36.5000
 20
59.5000
 30
0.0000
 40
1.0000
 50
270.0000
 51
0.0000
  0
ARC
  8
20
 10
13.4000
 20
62.5000
 30
0.0000
 40
1.0000
 50
90.0000
 51
180.0000
  0
ARC
  8
20
 10
13.4000
 20
59.5000
 30
0.0000
 40
1.0000
 50
180.0000
 51
270.0000
  0
LINE
  8
20
 10
0.0000
 20
23.7000
 30
0.0000
 11
9.3000
 21
23.7000
 31
0.0000
  0
LINE
  8
20
 10
10.7000
 20
23.7000
 30
0.0000
 11
89.3000
 21
23.7000
 31
0.0000
  0
LINE
  8
20
 10
90.7000
 20
23.7000
 30
0.0000
 11
100.0000
 21
23.7000
 31
0.0000
  0
LINE
  8
20
 10
100.0000
 20
23.7000
 30
0.0000
 11
100.0000
 21
19.4000
 31
0.0000
  0
LINE
  8
20
 10
100.0000
 20
18.0000
 30
0.0000
 11
100.0000
 21
5.7000
 31
0.0000
  0
LINE
  8
20
 10
100.0000
 20
4.3000
 30
0.0000
 11
100.0000
 21
0.0000
 31
0.0000
  0
LINE
  8
20
 10
100.0000
 20
0.0000
 30
0.0000
 11
90.7000
 21
0.0000
 31
0.0000
  0
LINE
  8
20
 10
9.3000
 20
0.0000
 30
0.0000
 11
0.0000
 21
0.0000
 31
0.0000
  0
LINE
  8
20
 10
0.0000
 20
0.0000
 30
0.0000
 11
0.0000
 21
4.3000
 31
0.0000
  0
LINE
  8
20
 10
0.0000
 20
5.7000
 30
0.0000
 11
0.0000
 21
18.0000
 31
0.0000
  0
LINE
  8
20
 10
0.0000
 20
19.4000
 30
0.0000
 11
0.0000
 21
23.7000
 31
0.0000
  0
ARC
  8
20
 10
-0.4000
 20
5.0000
 30
0.0000
 40
0.8062
 50
299.7449
 51
60.2551
  0
ARC
  8
20
 10
-0.4000
 20
18.7000
 30
0.0000
 40
0.8062
 50
299.7449
 51
60.2551
  0
ARC
  8
20
 10
100.4000
 20
18.7000
 30
0.0000
 40
0.8062
 50
119.7449
 51
240.2551
  0
ARC
  8
20
 10
100.4000
 20
5.0000
 30
0.0000
 40
0.8062
 50
119.7449
 51
240.2551
  0
ARC
  8
20
 10
10.0000
 20
24.1000
 30
0.0000
 40
0.8062
 50
209.7449
 51
330.2551
  0
ARC
  8
20
 10
90.0000
 20
24.1000
 30
0.0000
 40
0.8062
 50
209.7449
 51
330.2551
  0
ARC
  8
20
 10
90.0000
 20
-0.4000
 30
0.0000
 40
0.8062
 50
29.7449
 51
150.2551
  0
ARC
  8
20
 10
10.0000
 20
-0.4000
 30
0.0000
 40
0.8062
 50
29.7449
 51
150.2551
  0
LINE
  8
20
 10
10.7000
 20
0.0000
 30
0.0000
 11
89.3000
 21
0.0000
 31
0.0000
  0
LINE
  8
20
 10
0.0000
 20
48.7000
 30
0.0000
 11
9.3000
 21
48.7000
 31
0.0000
  0
LINE
  8
20
 10
10.7000
 20
48.7000
 30
0.0000
 11
89.3000
 21
48.7000
 31
0.0000
  0
LINE
  8
20
 10
90.7000
 20
48.7000
 30
0.0000
 11
100.0000
 21
48.7000
 31
0.0000
  0
LINE
  8
20
 10
100.0000
 20
48.7000
 30
0.0000
 11
100.0000
 21
44.4000
 31
0.0000
  0
LINE
  8
20
 10
100.0000
 20
43.0000
 30
0.0000
 11
100.0000
 21
30.7000
 31
0.0000
  0
LINE
  8
20
 10
100.0000
 20
29.3000
 30
0.0000
 11
100.0000
 21
25.0000
 31
0.0000
  0
LINE
  8
20
 10
100.0000
 20
25.0000
 30
0.0000
 11
90.7000
 21
25.0000
 31
0.0000
  0
LINE
  8
20
 10
9.3000
 20
25.0000
 30
0.0000
 11
0.0000
 21
25.0000
 31
0.0000
  0
LINE
  8
20
 10
0.0000
 20
25.0000
 30
0.0000
 11
0.0000
 21
29.3000
 31
0.0000
  0
LINE
  8
20
 10
0.0000
 20
30.7000
 30
0.0000
 11
0.0000
 21
43.0000
 31
0.0000
  0
LINE
  8
20
 10
0.0000
 20
44.4000
 30
0.0000
 11
0.0000
 21
48.7000
 31
0.0000
  0
ARC
  8
20
 10
-0.4000
 20
30.0000
 30
0.0000
 40
0.8062
 50
299.7449
 51
60.2551
  0
ARC
  8
20
 10
-0.4000
 20
43.7000
 30
0.0000
 40
0.8062
 50
299.7449
 51
60.2551
  0
ARC
  8
20
 10
100.4000
 20
43.7000
 30
0.0000
 40
0.8062
 50
119.7449
 51
240.2551
  0
ARC
  8
20
 10
100.4000
 20
30.0000
 30
0.0000
 40
0.8062
 50
119.7449
 51
240.2551
  0
ARC
  8
20
 10
10.0000
 20
49.1000
 30
0.0000
 40
0.8062
 50
209.7449
 51
330.2551
  0
ARC
  8
20
 10
90.0000
 20
49.1000
 30
0.0000
 40
0.8062
 50
209.7449
 51
330.2551
  0
ARC
  8
20
 10
90.0000
 20
24.6000
 30
0.0000
 40
0.8062
 50
29.7449
 51
150.2551
  0
ARC
  8
20
 10
10.0000
 20
24.6000
 30
0.0000
 40
0.8062
 50
29.7449
 51
150.2551
  0
LINE
  8
20
 10
10.7000
 20
25.0000
 30
0.0000
 11
89.3000
 21
25.0000
 31
0.0000
  0
CIRCLE
  8
20
 10
53.4000
 20
71.7000
 30
0.0000
 40
1.2000
  0
CIRCLE
  8
20
 10
53.4000
 20
58.0000
 30
0.0000
 40
1.2000
  0
CIRCLE
  8
20
 10
97.5000
 20
58.0000
 30
0.0000
 40
1.2000
  0
CIRCLE
  8
20
 10
97.5000
 20
71.7000
 30
0.0000
 40
1.2000
  0
CIRCLE
  8
20
 10
2.5000
 20
71.7000
 30
0.0000
 40
1.2000
  0
CIRCLE
  8
20
 10
2.5000
 20
58.0000
 30
0.0000
 40
1.2000
  0
CIRCLE
  8
20
 10
46.6000
 20
58.0000
 30
0.0000
 40
1.2000
  0
CIRCLE
  8
20
 10
46.6000
 20
71.7000
 30
0.0000
 40
1.2000
  0
ENDSEC
  0
EOF
